ISO-10303-21;
HEADER;
FILE_DESCRIPTION (( 'STEP AP203' ),
    '1' );
FILE_NAME ('BK7-NPBSC-12.7-900-1200.STEP',
    '2020-12-22T02:10:25',
    ( '' ),
    ( '' ),
    'SwSTEP 2.0',
    'SolidWorks 2020',
    '' );
FILE_SCHEMA (( 'CONFIG_CONTROL_DESIGN' ));
ENDSEC;

DATA;
#1 = DIRECTION ( 'NONE',  ( 0.000000000000000000, 0.000000000000000000, -1.000000000000000000 ) ) ;
#2 = ORIENTED_EDGE ( 'NONE', *, *, #222, .F. ) ;
#3 = LINE ( 'NONE', #96, #56 ) ;
#4 = ADVANCED_FACE ( 'NONE', ( #39 ), #133, .F. ) ;
#5 = EDGE_LOOP ( 'NONE', ( #74, #200, #145, #262 ) ) ;
#6 = CARTESIAN_POINT ( 'NONE',  ( 6.349999999999998757, 6.349999999999998757, -6.349999999999999645 ) ) ;
#7 = ORIENTED_EDGE ( 'NONE', *, *, #153, .F. ) ;
#8 = ORIENTED_EDGE ( 'NONE', *, *, #268, .T. ) ;
#9 = CARTESIAN_POINT ( 'NONE',  ( 0.000000000000000000, 0.000000000000000000, -6.349999999999999645 ) ) ;
#10 = DIRECTION ( 'NONE',  ( -2.220446049250312588E-16, 1.000000000000000000, 0.000000000000000000 ) ) ;
#11 = CARTESIAN_POINT ( 'NONE',  ( 6.349999999999998757, 6.349999999999998757, 6.349999999999999645 ) ) ;
#12 = APPROVAL_STATUS ( 'not_yet_approved' ) ;
#13 = CARTESIAN_POINT ( 'NONE',  ( 6.349999999999999645, -6.350000000000000533, 6.349999999999999645 ) ) ;
#14 = DIRECTION ( 'NONE',  ( -2.220446049250312588E-16, 1.000000000000000000, 0.000000000000000000 ) ) ;
#15 = MANIFOLD_SOLID_BREP ( '¾µÏ', #195 ) ;
#16 = DIRECTION ( 'NONE',  ( 6.829619984160658046E-17, -1.000000000000000000, 0.000000000000000000 ) ) ;
#17 = AXIS2_PLACEMENT_3D ( 'NONE', #214, #211, #89 ) ;
#18 = CC_DESIGN_PERSON_AND_ORGANIZATION_ASSIGNMENT ( #30, #228, ( #316 ) ) ;
#19 = CARTESIAN_POINT ( 'NONE',  ( -6.349999999999998757, -6.349999999999997868, 6.349999999999999645 ) ) ;
#20 = MANIFOLD_SOLID_BREP ( 'Í¹Ì¨-À', #128 ) ;
#21 = VECTOR ( 'NONE', #29, 1000.000000000000000 ) ;
#22 = PERSON_AND_ORGANIZATION_ROLE ( 'design_owner' ) ;
#23 = AXIS2_PLACEMENT_3D ( 'NONE', #9, #182, #10 ) ;
#24 = ORIENTED_EDGE ( 'NONE', *, *, #160, .F. ) ;
#25 = DIRECTION ( 'NONE',  ( 0.7071067811865474617, 0.7071067811865474617, 0.000000000000000000 ) ) ;
#26 = PLANE ( 'NONE',  #290 ) ;
#27 = EDGE_CURVE ( 'NONE', #85, #50, #205, .T. ) ;
#28 = VERTEX_POINT ( 'NONE', #81 ) ;
#29 = DIRECTION ( 'NONE',  ( 1.000000000000000000, -2.903408047666378392E-16, 0.000000000000000000 ) ) ;
#30 = PERSON_AND_ORGANIZATION ( #166, #270 ) ;
#31 = VERTEX_POINT ( 'NONE', #178 ) ;
#32 = ORIENTED_EDGE ( 'NONE', *, *, #303, .T. ) ;
#33 = ADVANCED_FACE ( 'NONE', ( #130 ), #233, .T. ) ;
#34 = EDGE_LOOP ( 'NONE', ( #202, #24, #125, #122 ) ) ;
#35 = LOCAL_TIME ( 10, 10, 25.00000000000000000, #61 ) ;
#36 = CARTESIAN_POINT ( 'NONE',  ( 6.349999999999996980, 6.349999999999996980, 6.349999999999999645 ) ) ;
#37 = CARTESIAN_POINT ( 'NONE',  ( -6.350000000000002309, 6.350000000000001421, 6.349999999999999645 ) ) ;
#38 = APPROVAL_DATE_TIME ( #132, #256 ) ;
#39 = FACE_OUTER_BOUND ( 'NONE', #231, .T. ) ;
#40 = DIRECTION ( 'NONE',  ( 0.7071067811865475727, -0.7071067811865475727, 0.000000000000000000 ) ) ;
#41 = LINE ( 'NONE', #65, #66 ) ;
#42 = COORDINATED_UNIVERSAL_TIME_OFFSET ( 8, 0, .AHEAD. ) ;
#43 = ORIENTED_EDGE ( 'NONE', *, *, #90, .T. ) ;
#44 = DIRECTION ( 'NONE',  ( 1.000000000000000000, -2.220446049250312588E-16, 0.000000000000000000 ) ) ;
#45 = VECTOR ( 'NONE', #273, 1000.000000000000114 ) ;
#46 = ADVANCED_FACE ( 'NONE', ( #308 ), #236, .F. ) ;
#47 = AXIS2_PLACEMENT_3D ( 'NONE', #218, #115, #289 ) ;
#48 = DATE_AND_TIME ( #317, #315 ) ;
#49 = VECTOR ( 'NONE', #260, 1000.000000000000000 ) ;
#50 = VERTEX_POINT ( 'NONE', #107 ) ;
#51 = LINE ( 'NONE', #198, #45 ) ;
#52 = EDGE_LOOP ( 'NONE', ( #32, #286, #55 ) ) ;
#53 = LINE ( 'NONE', #146, #169 ) ;
#54 = DATE_AND_TIME ( #318, #240 ) ;
#55 = ORIENTED_EDGE ( 'NONE', *, *, #222, .T. ) ;
#56 = VECTOR ( 'NONE', #1, 1000.000000000000000 ) ;
#57 = ORIENTED_EDGE ( 'NONE', *, *, #217, .F. ) ;
#58 = DIRECTION ( 'NONE',  ( -0.000000000000000000, 0.000000000000000000, 1.000000000000000000 ) ) ;
#59 = AXIS2_PLACEMENT_3D ( 'NONE', #36, #305, #155 ) ;
#60 = FACE_OUTER_BOUND ( 'NONE', #34, .T. ) ;
#61 = COORDINATED_UNIVERSAL_TIME_OFFSET ( 8, 0, .AHEAD. ) ;
#62 = DIRECTION ( 'NONE',  ( -1.000000000000000000, -6.829619984160658046E-17, 0.000000000000000000 ) ) ;
#63 = CARTESIAN_POINT ( 'NONE',  ( -6.349999999999999645, -6.350000000000000533, 6.349999999999999645 ) ) ;
#64 = DIRECTION ( 'NONE',  ( 0.000000000000000000, 0.000000000000000000, 1.000000000000000000 ) ) ;
#65 = CARTESIAN_POINT ( 'NONE',  ( -6.349999999999998757, -6.349999999999997868, 6.349999999999999645 ) ) ;
#66 = VECTOR ( 'NONE', #184, 1000.000000000000000 ) ;
#67 = PRODUCT_DEFINITION_SHAPE ( 'NONE', 'NONE',  #316 ) ;
#68 =( NAMED_UNIT ( * ) PLANE_ANGLE_UNIT ( ) SI_UNIT ( $, .RADIAN. ) );
#69 =( LENGTH_UNIT ( ) NAMED_UNIT ( * ) SI_UNIT ( .MILLI., .METRE. ) );
#70 = ORIENTED_EDGE ( 'NONE', *, *, #84, .F. ) ;
#71 = CC_DESIGN_PERSON_AND_ORGANIZATION_ASSIGNMENT ( #185, #282, ( #97 ) ) ;
#72 = CARTESIAN_POINT ( 'NONE',  ( 6.349999999999996980, 6.349999999999996980, -6.349999999999999645 ) ) ;
#73 = AXIS2_PLACEMENT_3D ( 'NONE', #283, #62, #16 ) ;
#74 = ORIENTED_EDGE ( 'NONE', *, *, #27, .F. ) ;
#75 = CARTESIAN_POINT ( 'NONE',  ( 6.349999999999996980, 6.349999999999996980, -6.349999999999999645 ) ) ;
#76 = VERTEX_POINT ( 'NONE', #13 ) ;
#77 = APPLICATION_PROTOCOL_DEFINITION ( 'international standard', 'config_control_design', 1994, #196 ) ;
#78 = VECTOR ( 'NONE', #119, 1000.000000000000000 ) ;
#79 = ORIENTED_EDGE ( 'NONE', *, *, #187, .T. ) ;
#80 = ADVANCED_FACE ( 'NONE', ( #206 ), #105, .F. ) ;
#81 = CARTESIAN_POINT ( 'NONE',  ( 6.349999999999999645, -6.350000000000000533, -6.349999999999999645 ) ) ;
#82 = DIRECTION ( 'NONE',  ( -0.000000000000000000, -0.000000000000000000, -1.000000000000000000 ) ) ;
#83 = PERSON_AND_ORGANIZATION ( #166, #270 ) ;
#84 = EDGE_CURVE ( 'NONE', #204, #28, #164, .T. ) ;
#85 = VERTEX_POINT ( 'NONE', #241 ) ;
#86 = SECURITY_CLASSIFICATION ( '', '', #209 ) ;
#87 = DIRECTION ( 'NONE',  ( 0.000000000000000000, 0.000000000000000000, 1.000000000000000000 ) ) ;
#88 = DIRECTION ( 'NONE',  ( -0.000000000000000000, -0.000000000000000000, -1.000000000000000000 ) ) ;
#89 = DIRECTION ( 'NONE',  ( 1.000000000000000000, 0.000000000000000000, 0.000000000000000000 ) ) ;
#90 = EDGE_CURVE ( 'NONE', #147, #269, #135, .T. ) ;
#91 =( GEOMETRIC_REPRESENTATION_CONTEXT ( 3 ) GLOBAL_UNCERTAINTY_ASSIGNED_CONTEXT ( ( #121 ) ) GLOBAL_UNIT_ASSIGNED_CONTEXT ( ( #69, #68, #267 ) ) REPRESENTATION_CONTEXT ( 'NONE', 'WORKASPACE' ) );
#92 = APPROVAL_ROLE ( '' ) ;
#93 = ADVANCED_BREP_SHAPE_REPRESENTATION ( 'BK7-NPBSC-12.7-900-1200', ( #20, #15, #264 ), #91 ) ;
#94 = PLANE ( 'NONE',  #47 ) ;
#95 = EDGE_LOOP ( 'NONE', ( #174, #276, #43, #171 ) ) ;
#96 = CARTESIAN_POINT ( 'NONE',  ( -6.349999999999998757, -6.349999999999997868, 6.349999999999999645 ) ) ;
#97 = PRODUCT_DEFINITION_FORMATION_WITH_SPECIFIED_SOURCE ( 'ANY', '', #137, .NOT_KNOWN. ) ;
#98 = EDGE_LOOP ( 'NONE', ( #298, #246, #7, #103 ) ) ;
#99 = DIRECTION ( 'NONE',  ( -0.7071067811865475727, -0.7071067811865475727, 0.000000000000000000 ) ) ;
#100 = ORIENTED_EDGE ( 'NONE', *, *, #168, .F. ) ;
#101 = CALENDAR_DATE ( 2020, 22, 12 ) ;
#102 = AXIS2_PLACEMENT_3D ( 'NONE', #19, #44, #64 ) ;
#103 = ORIENTED_EDGE ( 'NONE', *, *, #160, .T. ) ;
#104 = ADVANCED_FACE ( 'NONE', ( #310 ), #261, .F. ) ;
#105 = PLANE ( 'NONE',  #73 ) ;
#106 = CC_DESIGN_DATE_AND_TIME_ASSIGNMENT ( #136, #258, ( #86 ) ) ;
#107 = CARTESIAN_POINT ( 'NONE',  ( -6.350000000000002309, 6.350000000000001421, -6.349999999999999645 ) ) ;
#108 = CARTESIAN_POINT ( 'NONE',  ( 6.349999999999996980, 6.349999999999996980, -6.349999999999999645 ) ) ;
#109 = PERSON_AND_ORGANIZATION_ROLE ( 'design_supplier' ) ;
#110 = ADVANCED_FACE ( 'NONE', ( #162 ), #285, .F. ) ;
#111 = LINE ( 'NONE', #237, #288 ) ;
#112 = CARTESIAN_POINT ( 'NONE',  ( 6.349999999999996980, 6.349999999999996980, 6.349999999999999645 ) ) ;
#113 = DIRECTION ( 'NONE',  ( 1.000000000000000000, 0.000000000000000000, 0.000000000000000000 ) ) ;
#114 = CC_DESIGN_SECURITY_CLASSIFICATION ( #86, ( #97 ) ) ;
#115 = DIRECTION ( 'NONE',  ( 0.000000000000000000, 1.000000000000000000, 0.000000000000000000 ) ) ;
#116 = COORDINATED_UNIVERSAL_TIME_OFFSET ( 8, 0, .AHEAD. ) ;
#117 = PERSON_AND_ORGANIZATION ( #166, #270 ) ;
#118 = AXIS2_PLACEMENT_3D ( 'NONE', #259, #58, #279 ) ;
#119 = DIRECTION ( 'NONE',  ( -6.829619984160658046E-17, 1.000000000000000000, -0.000000000000000000 ) ) ;
#120 = CARTESIAN_POINT ( 'NONE',  ( 6.349999999999998757, 6.349999999999998757, -6.349999999999999645 ) ) ;
#121 = UNCERTAINTY_MEASURE_WITH_UNIT (LENGTH_MEASURE( 1.000000000000000082E-05 ), #69, 'distance_accuracy_value', 'NONE');
#122 = ORIENTED_EDGE ( 'NONE', *, *, #126, .T. ) ;
#123 = APPROVAL ( #245, 'UNSPECIFIED' ) ;
#124 = ORIENTED_EDGE ( 'NONE', *, *, #143, .F. ) ;
#125 = ORIENTED_EDGE ( 'NONE', *, *, #303, .F. ) ;
#126 = EDGE_CURVE ( 'NONE', #274, #249, #263, .T. ) ;
#127 = ORIENTED_EDGE ( 'NONE', *, *, #242, .T. ) ;
#128 = CLOSED_SHELL ( 'NONE', ( #219, #311, #80, #33, #104 ) ) ;
#129 = CC_DESIGN_PERSON_AND_ORGANIZATION_ASSIGNMENT ( #117, #22, ( #137 ) ) ;
#130 = FACE_OUTER_BOUND ( 'NONE', #52, .T. ) ;
#131 = LINE ( 'NONE', #63, #156 ) ;
#132 = DATE_AND_TIME ( #158, #265 ) ;
#133 = PLANE ( 'NONE',  #59 ) ;
#134 = DIRECTION ( 'NONE',  ( 1.000000000000000000, 0.000000000000000000, 0.000000000000000000 ) ) ;
#135 = LINE ( 'NONE', #112, #165 ) ;
#136 = DATE_AND_TIME ( #307, #35 ) ;
#137 = PRODUCT ( 'BK7-NPBSC-12.7-900-1200', 'BK7-NPBSC-12.7-900-1200', '', ( #192 ) ) ;
#138 = CARTESIAN_POINT ( 'NONE',  ( -6.349999999999999645, -6.350000000000000533, -6.349999999999999645 ) ) ;
#139 = EDGE_CURVE ( 'NONE', #147, #154, #186, .T. ) ;
#140 = CARTESIAN_POINT ( 'NONE',  ( 0.000000000000000000, 0.000000000000000000, 0.000000000000000000 ) ) ;
#141 = CC_DESIGN_APPROVAL ( #278, ( #316 ) ) ;
#142 = APPROVAL_DATE_TIME ( #48, #123 ) ;
#143 = EDGE_CURVE ( 'NONE', #269, #31, #41, .T. ) ;
#144 = AXIS2_PLACEMENT_3D ( 'NONE', #280, #87, #14 ) ;
#145 = ORIENTED_EDGE ( 'NONE', *, *, #143, .T. ) ;
#146 = CARTESIAN_POINT ( 'NONE',  ( 6.349999999999998757, 6.349999999999998757, -6.349999999999999645 ) ) ;
#147 = VERTEX_POINT ( 'NONE', #284 ) ;
#148 = CARTESIAN_POINT ( 'NONE',  ( 6.349999999999998757, 6.349999999999998757, 6.349999999999999645 ) ) ;
#149 = APPROVAL_DATE_TIME ( #54, #278 ) ;
#150 = CC_DESIGN_PERSON_AND_ORGANIZATION_ASSIGNMENT ( #314, #235, ( #86 ) ) ;
#151 = ORIENTED_EDGE ( 'NONE', *, *, #90, .F. ) ;
#152 = DATE_TIME_ROLE ( 'creation_date' ) ;
#153 = EDGE_CURVE ( 'NONE', #253, #76, #131, .T. ) ;
#154 = VERTEX_POINT ( 'NONE', #108 ) ;
#155 = DIRECTION ( 'NONE',  ( -1.000000000000000000, 2.903408047666378392E-16, 0.000000000000000000 ) ) ;
#156 = VECTOR ( 'NONE', #134, 1000.000000000000000 ) ;
#157 = PLANE ( 'NONE',  #191 ) ;
#158 = CALENDAR_DATE ( 2020, 22, 12 ) ;
#159 = DIRECTION ( 'NONE',  ( -2.220446049250312588E-16, 1.000000000000000000, 0.000000000000000000 ) ) ;
#160 = EDGE_CURVE ( 'NONE', #253, #204, #257, .T. ) ;
#161 = LINE ( 'NONE', #37, #49 ) ;
#162 = FACE_OUTER_BOUND ( 'NONE', #5, .T. ) ;
#163 = ORIENTED_EDGE ( 'NONE', *, *, #139, .T. ) ;
#164 = LINE ( 'NONE', #138, #203 ) ;
#165 = VECTOR ( 'NONE', #208, 999.9999999999998863 ) ;
#166 = PERSON ( 'UNSPECIFIED', 'UNSPECIFIED', 'UNSPECIFIED', ('UNSPECIFIED'), ('UNSPECIFIED'), ('UNSPECIFIED') ) ;
#167 = APPLICATION_PROTOCOL_DEFINITION ( 'international standard', 'config_control_design', 1994, #304 ) ;
#168 = EDGE_CURVE ( 'NONE', #31, #147, #111, .T. ) ;
#169 = VECTOR ( 'NONE', #225, 1000.000000000000000 ) ;
#170 = FACE_OUTER_BOUND ( 'NONE', #95, .T. ) ;
#171 = ORIENTED_EDGE ( 'NONE', *, *, #277, .T. ) ;
#172 = LINE ( 'NONE', #148, #78 ) ;
#173 = PERSON_AND_ORGANIZATION ( #166, #270 ) ;
#174 = ORIENTED_EDGE ( 'NONE', *, *, #293, .F. ) ;
#175 = COORDINATED_UNIVERSAL_TIME_OFFSET ( 8, 0, .AHEAD. ) ;
#176 = VECTOR ( 'NONE', #312, 1000.000000000000000 ) ;
#177 = EDGE_LOOP ( 'NONE', ( #151, #100, #124 ) ) ;
#178 = CARTESIAN_POINT ( 'NONE',  ( -6.350000000000002309, 6.350000000000001421, 6.349999999999999645 ) ) ;
#179 = PLANE ( 'NONE',  #144 ) ;
#180 = APPROVAL_ROLE ( '' ) ;
#181 = VECTOR ( 'NONE', #159, 1000.000000000000000 ) ;
#182 = DIRECTION ( 'NONE',  ( 0.000000000000000000, 0.000000000000000000, 1.000000000000000000 ) ) ;
#183 = CARTESIAN_POINT ( 'NONE',  ( -6.349999999999999645, -6.350000000000000533, 6.349999999999999645 ) ) ;
#184 = DIRECTION ( 'NONE',  ( -2.220446049250312588E-16, 1.000000000000000000, 0.000000000000000000 ) ) ;
#185 = PERSON_AND_ORGANIZATION ( #166, #270 ) ;
#186 = LINE ( 'NONE', #313, #221 ) ;
#187 = EDGE_CURVE ( 'NONE', #76, #28, #207, .T. ) ;
#188 = DIRECTION ( 'NONE',  ( 0.000000000000000000, 0.000000000000000000, 1.000000000000000000 ) ) ;
#189 = CC_DESIGN_PERSON_AND_ORGANIZATION_ASSIGNMENT ( #212, #109, ( #97 ) ) ;
#190 = APPROVAL_STATUS ( 'not_yet_approved' ) ;
#191 = AXIS2_PLACEMENT_3D ( 'NONE', #11, #40, #25 ) ;
#192 = MECHANICAL_CONTEXT ( 'NONE', #304, 'mechanical' ) ;
#193 = EDGE_LOOP ( 'NONE', ( #302, #229, #70 ) ) ;
#194 = LINE ( 'NONE', #72, #244 ) ;
#195 = CLOSED_SHELL ( 'NONE', ( #247, #110, #4, #213, #46 ) ) ;
#196 = APPLICATION_CONTEXT ( 'configuration controlled 3d designs of mechanical parts and assemblies' ) ;
#197 = ORIENTED_EDGE ( 'NONE', *, *, #268, .F. ) ;
#198 = CARTESIAN_POINT ( 'NONE',  ( 6.349999999999998757, 6.349999999999998757, 6.349999999999999645 ) ) ;
#199 = DESIGN_CONTEXT ( 'detailed design', #196, 'design' ) ;
#200 = ORIENTED_EDGE ( 'NONE', *, *, #277, .F. ) ;
#201 = PERSON_AND_ORGANIZATION ( #166, #270 ) ;
#202 = ORIENTED_EDGE ( 'NONE', *, *, #320, .T. ) ;
#203 = VECTOR ( 'NONE', #113, 1000.000000000000000 ) ;
#204 = VERTEX_POINT ( 'NONE', #306 ) ;
#205 = LINE ( 'NONE', #255, #181 ) ;
#206 = FACE_OUTER_BOUND ( 'NONE', #224, .T. ) ;
#207 = LINE ( 'NONE', #234, #176 ) ;
#208 = DIRECTION ( 'NONE',  ( -0.7071067811865475727, -0.7071067811865475727, 0.000000000000000000 ) ) ;
#209 = SECURITY_CLASSIFICATION_LEVEL ( 'unclassified' ) ;
#210 = DIRECTION ( 'NONE',  ( 1.000000000000000000, -2.903408047666378392E-16, 0.000000000000000000 ) ) ;
#211 = DIRECTION ( 'NONE',  ( -0.000000000000000000, 0.000000000000000000, 1.000000000000000000 ) ) ;
#212 = PERSON_AND_ORGANIZATION ( #166, #270 ) ;
#213 = ADVANCED_FACE ( 'NONE', ( #309 ), #179, .T. ) ;
#214 = CARTESIAN_POINT ( 'NONE',  ( 0.000000000000000000, 0.000000000000000000, -6.349999999999999645 ) ) ;
#215 = APPROVAL_PERSON_ORGANIZATION ( #83, #256, #180 ) ;
#216 = DIRECTION ( 'NONE',  ( 1.000000000000000000, 0.000000000000000000, 0.000000000000000000 ) ) ;
#217 = EDGE_CURVE ( 'NONE', #31, #50, #161, .T. ) ;
#218 = CARTESIAN_POINT ( 'NONE',  ( -6.349999999999999645, -6.350000000000000533, 6.349999999999999645 ) ) ;
#219 = ADVANCED_FACE ( 'NONE', ( #60 ), #157, .F. ) ;
#220 = DIRECTION ( 'NONE',  ( -0.7071067811865474617, -0.7071067811865474617, 0.000000000000000000 ) ) ;
#221 = VECTOR ( 'NONE', #287, 1000.000000000000000 ) ;
#222 = EDGE_CURVE ( 'NONE', #76, #274, #172, .T. ) ;
#223 = DIRECTION ( 'NONE',  ( -0.7071067811865475727, 0.7071067811865475727, 0.000000000000000000 ) ) ;
#224 = EDGE_LOOP ( 'NONE', ( #127, #321, #2, #79 ) ) ;
#225 = DIRECTION ( 'NONE',  ( -6.829619984160658046E-17, 1.000000000000000000, -0.000000000000000000 ) ) ;
#226 = CC_DESIGN_APPROVAL ( #123, ( #97 ) ) ;
#227 = ORIENTED_EDGE ( 'NONE', *, *, #27, .T. ) ;
#228 = PERSON_AND_ORGANIZATION_ROLE ( 'creator' ) ;
#229 = ORIENTED_EDGE ( 'NONE', *, *, #242, .F. ) ;
#230 = CC_DESIGN_DATE_AND_TIME_ASSIGNMENT ( #266, #152, ( #316 ) ) ;
#231 = EDGE_LOOP ( 'NONE', ( #197, #57, #294, #163 ) ) ;
#232 = VECTOR ( 'NONE', #220, 1000.000000000000114 ) ;
#233 = PLANE ( 'NONE',  #118 ) ;
#234 = CARTESIAN_POINT ( 'NONE',  ( 6.349999999999999645, -6.350000000000000533, 6.349999999999999645 ) ) ;
#235 = PERSON_AND_ORGANIZATION_ROLE ( 'classification_officer' ) ;
#236 = PLANE ( 'NONE',  #23 ) ;
#237 = CARTESIAN_POINT ( 'NONE',  ( 6.349999999999996980, 6.349999999999996980, 6.349999999999999645 ) ) ;
#238 = CARTESIAN_POINT ( 'NONE',  ( 6.349999999999998757, 6.349999999999998757, 6.349999999999999645 ) ) ;
#239 = SHAPE_DEFINITION_REPRESENTATION ( #67, #93 ) ;
#240 = LOCAL_TIME ( 10, 10, 25.00000000000000000, #116 ) ;
#241 = CARTESIAN_POINT ( 'NONE',  ( -6.349999999999998757, -6.349999999999997868, -6.349999999999999645 ) ) ;
#242 = EDGE_CURVE ( 'NONE', #28, #249, #53, .T. ) ;
#243 = APPROVAL_PERSON_ORGANIZATION ( #173, #278, #92 ) ;
#244 = VECTOR ( 'NONE', #99, 999.9999999999998863 ) ;
#245 = APPROVAL_STATUS ( 'not_yet_approved' ) ;
#246 = ORIENTED_EDGE ( 'NONE', *, *, #187, .F. ) ;
#247 = ADVANCED_FACE ( 'NONE', ( #170 ), #26, .F. ) ;
#248 = LINE ( 'NONE', #75, #21 ) ;
#249 = VERTEX_POINT ( 'NONE', #120 ) ;
#250 = CARTESIAN_POINT ( 'NONE',  ( 6.349999999999996980, 6.349999999999996980, 6.349999999999999645 ) ) ;
#251 = EDGE_LOOP ( 'NONE', ( #300, #227, #8 ) ) ;
#252 = FACE_OUTER_BOUND ( 'NONE', #98, .T. ) ;
#253 = VERTEX_POINT ( 'NONE', #297 ) ;
#254 = CC_DESIGN_APPROVAL ( #256, ( #86 ) ) ;
#255 = CARTESIAN_POINT ( 'NONE',  ( -6.349999999999998757, -6.349999999999997868, -6.349999999999999645 ) ) ;
#256 = APPROVAL ( #12, 'UNSPECIFIED' ) ;
#257 = LINE ( 'NONE', #183, #319 ) ;
#258 = DATE_TIME_ROLE ( 'classification_date' ) ;
#259 = CARTESIAN_POINT ( 'NONE',  ( 0.000000000000000000, 0.000000000000000000, 6.349999999999999645 ) ) ;
#260 = DIRECTION ( 'NONE',  ( 0.000000000000000000, 0.000000000000000000, -1.000000000000000000 ) ) ;
#261 = PLANE ( 'NONE',  #17 ) ;
#262 = ORIENTED_EDGE ( 'NONE', *, *, #217, .T. ) ;
#263 = LINE ( 'NONE', #238, #301 ) ;
#264 = AXIS2_PLACEMENT_3D ( 'NONE', #140, #188, #216 ) ;
#265 = LOCAL_TIME ( 10, 10, 25.00000000000000000, #42 ) ;
#266 = DATE_AND_TIME ( #101, #296 ) ;
#267 =( NAMED_UNIT ( * ) SI_UNIT ( $, .STERADIAN. ) SOLID_ANGLE_UNIT ( ) );
#268 = EDGE_CURVE ( 'NONE', #50, #154, #248, .T. ) ;
#269 = VERTEX_POINT ( 'NONE', #271 ) ;
#270 = ORGANIZATION ( 'UNSPECIFIED', 'UNSPECIFIED', '' ) ;
#271 = CARTESIAN_POINT ( 'NONE',  ( -6.349999999999998757, -6.349999999999997868, 6.349999999999999645 ) ) ;
#272 = CARTESIAN_POINT ( 'NONE',  ( 6.349999999999998757, 6.349999999999998757, 6.349999999999999645 ) ) ;
#273 = DIRECTION ( 'NONE',  ( -0.7071067811865474617, -0.7071067811865474617, 0.000000000000000000 ) ) ;
#274 = VERTEX_POINT ( 'NONE', #272 ) ;
#275 = PRODUCT_RELATED_PRODUCT_CATEGORY ( 'detail', '', ( #137 ) ) ;
#276 = ORIENTED_EDGE ( 'NONE', *, *, #139, .F. ) ;
#277 = EDGE_CURVE ( 'NONE', #269, #85, #3, .T. ) ;
#278 = APPROVAL ( #190, 'UNSPECIFIED' ) ;
#279 = DIRECTION ( 'NONE',  ( 1.000000000000000000, 0.000000000000000000, 0.000000000000000000 ) ) ;
#280 = CARTESIAN_POINT ( 'NONE',  ( 0.000000000000000000, 0.000000000000000000, 6.349999999999999645 ) ) ;
#281 = APPROVAL_PERSON_ORGANIZATION ( #201, #123, #299 ) ;
#282 = PERSON_AND_ORGANIZATION_ROLE ( 'creator' ) ;
#283 = CARTESIAN_POINT ( 'NONE',  ( 6.349999999999998757, 6.349999999999998757, 6.349999999999999645 ) ) ;
#284 = CARTESIAN_POINT ( 'NONE',  ( 6.349999999999996980, 6.349999999999996980, 6.349999999999999645 ) ) ;
#285 = PLANE ( 'NONE',  #102 ) ;
#286 = ORIENTED_EDGE ( 'NONE', *, *, #153, .T. ) ;
#287 = DIRECTION ( 'NONE',  ( 0.000000000000000000, 0.000000000000000000, -1.000000000000000000 ) ) ;
#288 = VECTOR ( 'NONE', #210, 1000.000000000000000 ) ;
#289 = DIRECTION ( 'NONE',  ( 0.000000000000000000, -0.000000000000000000, 1.000000000000000000 ) ) ;
#290 = AXIS2_PLACEMENT_3D ( 'NONE', #250, #223, #295 ) ;
#291 = COORDINATED_UNIVERSAL_TIME_OFFSET ( 8, 0, .AHEAD. ) ;
#292 = LINE ( 'NONE', #6, #232 ) ;
#293 = EDGE_CURVE ( 'NONE', #154, #85, #194, .T. ) ;
#294 = ORIENTED_EDGE ( 'NONE', *, *, #168, .T. ) ;
#295 = DIRECTION ( 'NONE',  ( 0.7071067811865475727, 0.7071067811865475727, 0.000000000000000000 ) ) ;
#296 = LOCAL_TIME ( 10, 10, 25.00000000000000000, #291 ) ;
#297 = CARTESIAN_POINT ( 'NONE',  ( -6.349999999999999645, -6.350000000000000533, 6.349999999999999645 ) ) ;
#298 = ORIENTED_EDGE ( 'NONE', *, *, #84, .T. ) ;
#299 = APPROVAL_ROLE ( '' ) ;
#300 = ORIENTED_EDGE ( 'NONE', *, *, #293, .T. ) ;
#301 = VECTOR ( 'NONE', #88, 1000.000000000000000 ) ;
#302 = ORIENTED_EDGE ( 'NONE', *, *, #320, .F. ) ;
#303 = EDGE_CURVE ( 'NONE', #274, #253, #51, .T. ) ;
#304 = APPLICATION_CONTEXT ( 'configuration controlled 3d designs of mechanical parts and assemblies' ) ;
#305 = DIRECTION ( 'NONE',  ( -2.903408047666378392E-16, -1.000000000000000000, 0.000000000000000000 ) ) ;
#306 = CARTESIAN_POINT ( 'NONE',  ( -6.349999999999999645, -6.350000000000000533, -6.349999999999999645 ) ) ;
#307 = CALENDAR_DATE ( 2020, 22, 12 ) ;
#308 = FACE_OUTER_BOUND ( 'NONE', #251, .T. ) ;
#309 = FACE_OUTER_BOUND ( 'NONE', #177, .T. ) ;
#310 = FACE_OUTER_BOUND ( 'NONE', #193, .T. ) ;
#311 = ADVANCED_FACE ( 'NONE', ( #252 ), #94, .F. ) ;
#312 = DIRECTION ( 'NONE',  ( -0.000000000000000000, -0.000000000000000000, -1.000000000000000000 ) ) ;
#313 = CARTESIAN_POINT ( 'NONE',  ( 6.349999999999996980, 6.349999999999996980, 6.349999999999999645 ) ) ;
#314 = PERSON_AND_ORGANIZATION ( #166, #270 ) ;
#315 = LOCAL_TIME ( 10, 10, 25.00000000000000000, #175 ) ;
#316 = PRODUCT_DEFINITION ( 'UNKNOWN', '', #97, #199 ) ;
#317 = CALENDAR_DATE ( 2020, 22, 12 ) ;
#318 = CALENDAR_DATE ( 2020, 22, 12 ) ;
#319 = VECTOR ( 'NONE', #82, 1000.000000000000000 ) ;
#320 = EDGE_CURVE ( 'NONE', #249, #204, #292, .T. ) ;
#321 = ORIENTED_EDGE ( 'NONE', *, *, #126, .F. ) ;
ENDSEC;
END-ISO-10303-21;
